Welcome to AvengedSevenfoldism !!!!

HAve Fun !!!!
Ada kesalahan di dalam gadget ini
Ada kesalahan di dalam gadget ini

Jumat, 29 Januari 2010

A Little Piece of Heaven" Avenged Sevenfold Tab

-------------------------------------------------------------------------------
A Little Piece of Heaven" --- Avenged Sevenfold

Tabbed By:
[travis]

-------------------------------------------------------------------------------


Tabbed by: [travis]


Go easy on me on this tab. It took me a long time to figure it
out and tab it out.

**************************************************************************

*Update #1 (March 16, 2009 [5:00pm]):

*I fixed up this tab, because I hadn't realized
how messy and confusing this was. A lot of you
were confused with one guitar having only the
low E string tuned down to Db, while the other
5 strings stayed in standard tuning. So, I fixed that
problem, and now I have two guitar parts tabbed out.

*I added the rhythym that goes under the piano parts,
meaning when M. Shadows and the girl are singing. The
chords are what Synyster Gates and Zacky Vengeance play
on the "LBC" DVD. Now, this tab is much better and fun to
play along with, now that it has those chords.

*The only thing you guys have to look at, is playing the
rhythm of the chords on those piano parts. I wrote down the
chords, but you can play your own rhythm that follows the timing
and fits in right. There will be a subtitle above those parts that
tells you to play the rhythm of those chords, and the next sections
with chords say "Same as above ^^^."

*************************************************************************

Tuning:

Piano: E A D G B E (low to high)
Horns: E A D G B E (low to high)
Violins: E A D G B E (low to high)

Guitar 1: D A D G B E (low to high)
Guitar 2: D A D G B E (low to high)



Key: F Major (F G A Bb C D E F)



Legend:
... = palm mute
p = pull off
h = hammer on
VV = wammy bar
/ = slide up
\ = slide down
() = note barely heard or bring bent note back to normal
* = pinch harmonic
! = harmonic



Intro:
Piano:
e|----0-1--0------------------------------------------------|
B|-3----------3---2---3--5--3----------------------------2--|
G|-3-------2-------------------2--3--0--2-----0--2-3--2-----|
D|----------------2---------0--------------3----------------|
A|----------------------------------------------------0-----|
E|--------------------------------3-----1-----0-------------|


Piano: Choir starts to sing here.
e|----0-1--0------------------------------------------|
B|-3----------3---2---3--5--3-------------------------|
G|-3-------2-------------------2--3--0--2-----0-------|
D|----------------2---------0--------------3-----3--2-|
A|----------------------------------------------------|
E|--------------------------------3-----1-----0-------|


=============================
Horns:
x1 x1
e|--5-----6-5-----------------|----------------------------|
B|---------------6--5--1------|-13----14-13----------------|
G|----------------------------|--------------13--12--10----|
D|----------------------------|----------------------------| x2
A|----------------------------|----------------------------|
D|----------------------------|----------------------------|


Guitars 1 and 2: Play each bar twice then repeat, playing each bar twice.
x2 x2
e|----------------------------|----------------------------|
B|----------------------------|----------------------------|
G|----------------------------|----------------------------|
D|----------------------------|----------------------------| x2
A|----------------------------|----------------------------|
D|-0-0--0-0-0-0--0-0--0-0-0-0-|-3-3--3-3-3-3--3-3--3-3-3-3-|
.......................................................

==============================
Guitars 1 and 2: "Before the story...before the story ends."
e|---------------------------------------------------------------|
B|---------------------------------------------------------------|
G|---------------------------------------------------------------|
D|---------------------------------------------------------------| x2
A|-----------------4-4--4-4--4-4---------------------------------|
D|-0-0--0-0--0-0-------------------3-3--3-3--3-3---6-6--6-6--6-6-|

==============================
Guitars 1 and 2: "And I will take..."
e|-----------------------------------|
B|-----------------------------------|
G|-----------------------------------|
D|-----------------------------------| x1
A|-----------------------------------|
D|-3-3--3-3--3-3---6-6--6-6--6-6-6-6-|

==============================
1ST TIME:"Our love had been so strong..."
2ND TIME:"New possbilities I'd never..."

Guitar 1: Let the notes ring while you slowly push the whammy bar down.
Listen for timing. Use Reverb.

vvvv vvvv vvvv VV vvvv vvvv vvvv vv
e|---5--------9-------7------5~~--------10---------12---------11-----10~~-|
B|--6-------10-------9-------6~~------10---------14---------12-------10~~-|
G|-7-------9--------8--------7~~----10---------14---------13---------10~~-|
D|------------------------------------------------------------------------|
A|------------------------------------------------------------------------|
D|------------------------------------------------------------------------|

===============================
Guitars 1 and 2: "Almost laughed myself to tears...Come here you f***ing b**ch!"
Listen for timing.
e|--------------------------------------------------------|
B|--------------------------------------------------------|
G|-------------------5-4~~~~-------------------5--7~~~~~--|
D|-------5-7----5-6----------------5-7----5-6-------------|
A|-5-7-8------8--------------5-7-8------8-----------------|
D|--------------------------------------------------------|

==============================
Guitars 1 and 2: "Must have stabbed her...Eat it Eat it!"
Listen for timing.
e|-------------------------------------|
B|-------------------------------------|
G|-------------------------------------| x2
D|-12-----11---------------------------|
A|--x------x---------------------------|
D|-12-----11------3---6--3---6---3--6--|

===============================
Guitars 1 and 2: "She was never this good...been quite so f***ing deep in."
e|-------------------------------------------------------|
B|-------------------------------------------------------|
G|-------------------------------------------------------|
D|----------------7-8-7-5--------------------5-8-7-5-----| x1
A|-5----5-----5-8---------8-7---4----4----7----------8-7-|
D|----7-----7----------------------7----7----------------|

===============================
Guitars 1 and 2: "It goes on and on...to spray on your youth whenever."
e|-----------------------------------|
B|-----------------------------------|
G|-----------------------------------|
D|-----------------------------------| x2
A|---------------------------------4-|
D|-0--3---/8--7---5--7--3----5--2----|

================================
"Cause I really knew...but bye bye. And a"

Guitars 1 and 2:
You can play these chords, with rhythm, even though there's no guitar here, but this
is what Syn and Zacky play on the LBC DVD:
e|-----------------|
B|-----------------|
G|-3----5----------|
D|-3----5----3---0-| x2
A|-1----3----3---0-|
D|-----------3---0-|

================================
"word to the wise...begun."
Guitars 1 and 2: Same as above ^^^.
e|--------------------|
B|--------------------|
G|-3---5---3----7--5--|
D|-3---5---5----7--5--|
A|-1---3---4----5--3--|
D|--------------------|

================================
"...baby don't cry. You had my heart."
Guitars 1 and 2: Same as above ^^^.
e|----------|
B|----------|
G|-3----5---|
D|-3----5---|
A|-1----3---|
D|----------|

===============================
"...at least for the most part."
Guitars 1 and 2: Same as above ^^^.
e|----------|
B|----------|
G|-3----5---|
D|-3----5---|
A|-1----3---|
D|----------|

===============================
"Cause everybody's...We fell apart."
Guitars 1 and 2: Same as above ^^^.
e|-----------------|
B|-----------------|
G|---------7---5---|
D|-3---5---7---5---|
A|-3---3---5---3---|
D|-3---2---0-------|


===============================
"Let's make a new start."
Guitars 1 and 2: Same as above ^^^.
e|----------|
B|----------|
G|-3----5---|
D|-3----5---|
A|-1----3---|
D|----------|

================================
"Cause everybody's got to die..."
Guitars 1 and 2: Same as above ^^^.
e|-----------------|
B|-----------------|
G|---------7---5---|
D|-3---5---7---5---|
A|-3---3---5---3---|
D|-3---2---0-------|


=================================
"But baby don't cry..."
Guitars 1 and 2: Same as above ^^^.
e|----------|
B|----------|
G|-3----5---|
D|-3----5---|
A|-1----3---|
D|----------|


***Now go back and repeat from the whammy bar part.
It should be when Shadows says: "New possibilities."
When you get back to this part for the second time,
go on to the INTERLUDE below VVVVVVV.

=================================
*******************************
*******************************
Interlude
Guitars 1 and 2:
e|------------------------------------------------------------|
B|------------------------------------------------------------|
G|---3-2----3-2----3-2----3-2----6-5----6-5------6-5------6-5-|
D|------------------------------------------------------2-----| x2
A|----------------------4----------------------7--------------|
D|-0------3------2-------------3------6------5--------2-------|

=================================
"I will suffer...I pray to God that you do. I'll do what"

Piano:
Listen for timing.
e|----------------------------------------------------------|
B|----------------------------------------------------------|
G|------14---13---10-------15---14---12-------15---14---12--|
D|-------x----x----x--------x----x----x--------x----x----x--| x1
A|-5----12---10----8-------13---12---10-------13---12---10--|
E|---------------------6------------------3-----------------|

Guitars 1 and 2: Use rhythm on these chords. Listen for timing as well.
e|---------------|
B|---------------|
G|-7----3--------|
D|-7----3----5---| x1
A|-5----1----5---|
D|-0---------5---|

=================================
Guitar 1: "ever you want...break you."
Listen for timing.
e|-------------------------------|
B|-------------------------------|
G|-10-----9-----7----------------|
D|-------------------11-----11---| x1
A|-------------------------------|
D|--8-----8-----8-----9------9---|

Guitars 1 and 2: Use rhythm on these chords. Listen for timing as well.
e|----------|
B|----------|
G|-5----3---|
D|-5----5---|
A|-3----4---|
D|----------|

=================================
"Unchained, and if it's not enough...if it's not enough, if it's"

Piano:
e|----------------------------------------------------------|
B|----------------------------------------------------------|
G|------14---13---10-------15---14---12-------15---14---12--|
D|-------x----x----x--------x----x----x--------x----x----x--|
A|-5----12---10----8-------13---12---10-------13---12---10--|
E|---------------------6------------------3-----------------|

Violins:
e|-------3-----------3-5---------3-----5---3-------|
B|-3-5-6---6-5-3-5-6-----6-3-5-6---6-5---6---5-6-3-|
G|-------------------------------------------------|
D|-------------------------------------------------|
A|-------------------------------------------------|
E|-------------------------------------------------|

Guitars 1 and 2: Use rhythm on these chords. Listen for timing as well.
e|----------|
B|----------|
G|-7----3---|
D|-7----3---| x1
A|-5----1---|
D|----------|

=================================
"Not enough, If it's not enough, If it's not enough."

Violins
e|-6-3-5---3---6-3-5-6-5-3-5---3---5---3-----3-5---------------|
B|-------6---5---------------6---5---6---5-6-----6-3-5-6-3-5---|
G|-----------------------------------------------------------5-|
D|-------------------------------------------------------------|
A|-------------------------------------------------------------|
E|-------------------------------------------------------------|

Guitars 1 and 2: Use rhythm on these chords. Listen for timing as well.
e|----------|
B|----------|
G|-3--------|
D|-3----5---|
A|-1----5---|
D|------5---|

==================================
"Try again, try again."
Guitar 4: Violins
e|-6-----------------3-5---3-5-------|
B|-x-5-6-3-5-----5-6-----6-----5-6-5-|
G|-3---------5-2---------------------|
D|-----------------------------------|
A|-----------------------------------|
E|-----------------------------------|

Guitars 1 and 2: Use rhythm on this chord.
e|----|
B|----|
G|----|
D|-5--|
A|-5--|
D|-5--|

==================================
"and again, and again. Over and over again."

Piano:
e|--------------------------------|
B|--------------------------------|
G|-10----9------------------------|
D|-----------12----11----11---11--|
A|--------------------------------|
D|-10---10---10----11----11---11--|

Violins:
e|-----------3---3-5-6-5-3-6-5-3-------------3-5-6-|
B|-6-5-3-6-5---6-----------------6-5-3-2-3-5-------|
G|-------------------------------------------------|
D|-------------------------------------------------|
A|-------------------------------------------------|
E|-------------------------------------------------|

Guitars 1 and 2: Use rhythm on these chords. Listen for timing as well.
e|----------|
B|----------|
G|-5----5---|
D|-5----5---|
A|-3----4---|
D|----------|

====================================
"We're coming back, coming back..."

Guitars 1 and 2: Listen for timing.
e|------------------|
B|------------------|
G|------------------|
D|---------------3--|
A|-5------5----3----|
D|------7-----------|


Horns: Listen for rhythm for the chords with the () only.
e|-----------------------------------8---7h/8--7h/8-|
B|--6---5h/6--5h/6---6--5h/6--5h/6---9---8h/9--8h/9-|
G|--7---6h/7--6h/7---7--6h/7--6h/7--(-)-------------|
D|-(-)--------------(-)-----------------------------|
A|--------------------------------------------------|
D|--------------------------------------------------|
...............................................

=====================================
"Let's start the killing, start the killing."
Guitars 1 and 2: Listen for timing.
e|---------------|
B|---------------|
G|---------------|
D|---------------|
A|---3-----------|
D|-3----------7--|


Violins: Rhythm for () chord only.
e|--8--7h/8--7h/8--|
B|--9--8h/9--8h/9--|
G|-(-)-------------|
D|-----------------|
A|-----------------|
D|-----------------|

======================================
Break:
Horns: Listen for timing.
x1 x1
e|--5-----6-5-----------------|----------------------------|
B|---------------6--5--1------|-13----14-13----------------|
G|----------------------------|--------------13--12--10----|
D|----------------------------|----------------------------| x2
A|----------------------------|----------------------------|
D|----------------------------|----------------------------|

Guitars 1 and 2:
x2 x2
e|----------------------------|----------------------------|
B|----------------------------|----------------------------|
G|----------------------------|----------------------------|
D|----------------------------|----------------------------| x2
A|----------------------------|----------------------------|
D|-0-0--0-0-0-0-0--0--0-0-0-0-|-3-3--3-3-3-3-3--3--3-3-3-3-|
.......................................................

=======================================
Guitars 1 and 2:
e|----------------------------------------------------------|
B|----------------------------------------------------------|
G|----------------------------------------------------------|
D|----------------------------------------------------------|
A|----------------------------------------------------------|
D|-6-6--6-6-6-6-6--6--6-6-6-6--6-6--6-6-6-6-6-6-6-6-6-6-6-6-|
........................................................

========================================
Piano:
e|----0-1--0------------------------------------------------|
B|-3----------3---2---3--5--3----------------------------2--|
G|-3-------2-------------------2--3--0--2-----0--2-3--2-----|
D|----------------2---------0--------------3----------------|
A|----------------------------------------------------0-----|
E|--------------------------------3-----1-----0-------------|


Piano:
e|----0-1--0------------------------------------------|
B|-3----------3---2---3--5--3-------------------------|
G|-3-------2-------------------2--3--0--2-----0-------|
D|----------------2---------0--------------3-----3--2-|
A|----------------------------------------------------|
E|--------------------------------3-----1-----0-------|


==========================================
"Do you take this man...I now pronounce you."

Guitars 1 and 2: Listen for timing.
e|-----------------------------------|
B|-----------------------------------|
G|-----------------------------------|
D|-----------------------------------| x2
A|---------------------------------4-|
D|-0--3---/8--7---5--7--3----5--2----|

==========================================
"Cause I really knew...but bye bye. And a"
Guitars 1 and 2: Play rhythm on each chord.
e|-----------------|
B|-----------------|
G|-3----5----------|
D|-3----5----3---0-| x2
A|-1----3----3---0-|
D|-----------3---0-|

===========================================
"word to the wise...begun."
Guitars 1 and 2: Same as above ^^^.
e|--------------------|
B|--------------------|
G|-3---5---3----7--5--|
D|-3---5---5----7--5--|
A|-1---3---4----5--3--|
D|--------------------|

================================
"...baby don't cry. You had my heart."
Guitars 1 and 2: Same as above ^^^.
e|----------|
B|----------|
G|-3----5---|
D|-3----5---|
A|-1----3---|
D|----------|

===============================
"...at least for the most part."
Guitars 1 and 2: Same as above ^^^.
e|----------|
B|----------|
G|-3----5---|
D|-3----5---|
A|-1----3---|
D|----------|


===============================
"Cause everybody's...We fell apart."
Guitars 1 and 2: Same as above ^^^.
e|-----------------|
B|-----------------|
G|---------7---5---|
D|-3---5---7---5---|
A|-3---3---5---3---|
D|-3---2---0-------|

================================
"Let's make a new start."
Guitars 1 and 2: Same as above ^^^.
e|----------|
B|----------|
G|-3----5---|
D|-3----5---|
A|-1----3---|
D|----------|

================================
"Cause everybody's got to die..."
Guitars 1 and 2: Same as above ^^^.
e|-----------------|
B|-----------------|
G|---------7---5---|
D|-3---5---7---5---|
A|-3---3---5---3---|
D|-3---2---0-------|

=================================
"But baby don't cry..."
Guitars 1 and 2: Same as above ^^^.
e|----------|
B|----------|
G|-3----5---|
D|-3----5---|
A|-1----3---|
D|----------|


That's the end of the song.
Please Rate and Comment.
Thanks.

[travis]

Tidak ada komentar:

Poskan Komentar